999
DXF created by Inkscape
  0
SECTION
  2
HEADER
  9
$ACADVER
  1
AC1014
  9
$HANDSEED
  5
FFFF
  9
$MEASUREMENT
 70
     1
  0
ENDSEC
  0
SECTION
  2
TABLES
  0
TABLE
  2
VPORT
  5
8
330
0
100
AcDbSymbolTable
 70
     4
  0
VPORT
  5
2E
330
8
100
AcDbSymbolTableRecord
100
AcDbViewportTableRecord
  2
*ACTIVE
 70
     0
 10
0.0
 20
0.0
 11
1.0
 21
1.0
 12
210.0
 22
148.5
 13
0.0
 23
0.0
 14
10.0
 24
10.0
 15
10.0
 25
10.0
 16
0.0
 26
0.0
 36
1.0
 17
0.0
 27
0.0
 37
0.0
 40
341.0
 41
1.24
 42
50.0
 43
0.0
 44
0.0
 50
0.0
 51
0.0
 71
     0
 72
   100
 73
     1
 74
     3
 75
     0
 76
     0
 77
     0
 78
     0
  0
ENDTAB
  0
TABLE
  2
LTYPE
  5
5
330
0
100
AcDbSymbolTable
 70
     1
  0
LTYPE
  5
14
330
5
100
AcDbSymbolTableRecord
100
AcDbLinetypeTableRecord
  2
BYBLOCK
 70
     0
  3

 72
    65
 73
     0
 40
0.0
  0
LTYPE
  5
15
330
5
100
AcDbSymbolTableRecord
100
AcDbLinetypeTableRecord
  2
BYLAYER
 70
     0
  3

 72
    65
 73
     0
 40
0.0
  0
LTYPE
  5
16
330
5
100
AcDbSymbolTableRecord
100
AcDbLinetypeTableRecord
  2
CONTINUOUS
 70
     0
  3
Solid line
 72
    65
 73
     0
 40
0.0
  0
ENDTAB
  0
TABLE
  2
LAYER
  5
2
330
0
100
AcDbSymbolTable
 70
1
  0
LAYER
  5
10
330
2
100
AcDbSymbolTableRecord
100
AcDbLayerTableRecord
  2
0
 70
     0
 62
     7
  6
CONTINUOUS
  0
ENDTAB
  0
TABLE
  2
STYLE
  5
3
330
0
100
AcDbSymbolTable
 70
     1
  0
STYLE
  5
11
330
3
100
AcDbSymbolTableRecord
100
AcDbTextStyleTableRecord
  2
STANDARD
 70
     0
 40
0.0
 41
1.0
 50
0.0
 71
     0
 42
2.5
  3
txt
  4

  0
ENDTAB
  0
TABLE
  2
VIEW
  5
6
330
0
100
AcDbSymbolTable
 70
     0
  0
ENDTAB
  0
TABLE
  2
UCS
  5
7
330
0
100
AcDbSymbolTable
 70
     0
  0
ENDTAB
  0
TABLE
  2
APPID
  5
9
330
0
100
AcDbSymbolTable
 70
     2
  0
APPID
  5
12
330
9
100
AcDbSymbolTableRecord
100
AcDbRegAppTableRecord
  2
ACAD
 70
     0
  0
ENDTAB
  0
TABLE
  2
DIMSTYLE
  5
A
330
0
100
AcDbSymbolTable
 70
     1
  0
DIMSTYLE
105
27
330
A
100
AcDbSymbolTableRecord
100
AcDbDimStyleTableRecord
  2
ISO-25
 70
     0
  3

  4

  5

  6

  7

 40
1.0
 41
2.5
 42
0.625
 43
3.75
 44
1.25
 45
0.0
 46
0.0
 47
0.0
 48
0.0
140
2.5
141
2.5
142
0.0
143
0.03937007874016
144
1.0
145
0.0
146
1.0
147
0.625
 71
     0
 72
     0
 73
     0
 74
     0
 75
     0
 76
     0
 77
     1
 78
     8
170
     0
171
     3
172
     1
173
     0
174
     0
175
     0
176
     0
177
     0
178
     0
270
     2
271
     2
272
     2
273
     2
274
     3
340
11
275
     0
280
     0
281
     0
282
     0
283
     0
284
     8
285
     0
286
     0
287
     3
288
     0
  0
ENDTAB
  0
TABLE
  2
BLOCK_RECORD
  5
1
330
0
100
AcDbSymbolTable
 70
     1
  0
BLOCK_RECORD
  5
1F
330
1
100
AcDbSymbolTableRecord
100
AcDbBlockTableRecord
  2
*MODEL_SPACE
  0
BLOCK_RECORD
  5
1B
330
1
100
AcDbSymbolTableRecord
100
AcDbBlockTableRecord
  2
*PAPER_SPACE
  0
ENDTAB
  0
ENDSEC
  0
SECTION
  2
BLOCKS
  0
BLOCK
  5
20
330
1F
100
AcDbEntity
  8
0
100
AcDbBlockBegin
  2
*MODEL_SPACE
 70
     0
 10
0.0
 20
0.0
 30
0.0
  3
*MODEL_SPACE
  1

  0
ENDBLK
  5
21
330
1F
100
AcDbEntity
  8
0
100
AcDbBlockEnd
  0
BLOCK
  5
1C
330
1B
100
AcDbEntity
 67
     1
  8
0
100
AcDbBlockBegin
  2
*PAPER_SPACE
  1

  0
ENDBLK
  5
1D
330
1B
100
AcDbEntity
 67
     1
  8
0
100
AcDbBlockEnd
  0
ENDSEC
  0
SECTION
  2
ENTITIES
  0
LWPOLYLINE
  5
100
100
AcDbEntity
  8
0
 62
7
100
AcDbPolyline
 90
2
 70
0
 10
131.603657
 20
0.248835
 30
0.0
 10
149.436749
 20
0.049397
 30
0.0
  0
LWPOLYLINE
  5
101
100
AcDbEntity
  8
0
 62
7
100
AcDbPolyline
 90
2
 70
0
 10
514.999591
 20
0.049397
 30
0.0
 10
515.404552
 20
0.049397
 30
0.0
  0
LWPOLYLINE
  5
102
100
AcDbEntity
  8
0
 62
7
100
AcDbPolyline
 90
2
 70
0
 10
245.028511
 20
0.049397
 30
0.0
 10
514.999591
 20
0.049397
 30
0.0
  0
SPLINE
  5
103
100
AcDbEntity
  8
0
 62
7
100
AcDbSpline
 70
8
 71
3
 72
8
 73
4
 74
0
 40
0
 40
0
 40
0
 40
0
 40
1
 40
1
 40
1
 40
1
 10
124.849379
 20
0.448276
 30
0.0
 10
127.100412
 20
0.369902
 30
0.0
 10
129.351873
 20
0.303747
 30
0.0
 10
131.603657
 20
0.249815
 30
0.0
  0
LWPOLYLINE
  5
104
100
AcDbEntity
  8
0
 62
7
100
AcDbPolyline
 90
2
 70
0
 10
245.028511
 20
0.049397
 30
0.0
 10
149.436749
 20
0.049397
 30
0.0
  0
LWPOLYLINE
  5
105
100
AcDbEntity
  8
0
 62
7
100
AcDbPolyline
 90
2
 70
0
 10
515.404552
 20
0.049397
 30
0.0
 10
944.950556
 20
4.032332
 30
0.0
  0
LWPOLYLINE
  5
106
100
AcDbEntity
  8
0
 62
7
100
AcDbPolyline
 90
4
 70
0
 10
100.731963
 20
1.596034
 30
0.0
 10
107.618225
 20
1.178580
 30
0.0
 10
114.509488
 20
0.854978
 30
0.0
 10
124.849379
 20
0.448276
 30
0.0
  0
LWPOLYLINE
  5
107
100
AcDbEntity
  8
0
 62
7
100
AcDbPolyline
 90
3
 70
0
 10
93.627725
 20
2.244214
 30
0.0
 10
97.685290
 20
1.853156
 30
0.0
 10
100.731963
 20
1.596034
 30
0.0
  0
LWPOLYLINE
  5
108
100
AcDbEntity
  8
0
 62
7
100
AcDbPolyline
 90
2
 70
0
 10
86.253515
 20
2.892397
 30
0.0
 10
93.627725
 20
2.244214
 30
0.0
  0
SPLINE
  5
109
100
AcDbEntity
  8
0
 62
7
100
AcDbSpline
 70
8
 71
3
 72
8
 73
4
 74
0
 40
0
 40
0
 40
0
 40
0
 40
1
 40
1
 40
1
 40
1
 10
73.663861
 20
4.338337
 30
0.0
 10
75.725509
 20
4.014161
 30
0.0
 10
77.793720
 20
3.731235
 30
0.0
 10
79.867198
 20
3.489737
 30
0.0
  0
LWPOLYLINE
  5
10a
100
AcDbEntity
  8
0
 62
7
100
AcDbPolyline
 90
3
 70
0
 10
79.868197
 20
3.490716
 30
0.0
 10
82.602905
 20
3.213063
 30
0.0
 10
86.253515
 20
2.892397
 30
0.0
  0
LWPOLYLINE
  5
10b
100
AcDbEntity
  8
0
 62
7
100
AcDbPolyline
 90
3
 70
0
 10
65.407746
 20
5.784277
 30
0.0
 10
70.121241
 20
4.935680
 30
0.0
 10
73.663861
 20
4.338337
 30
0.0
  0
LWPOLYLINE
  5
10c
100
AcDbEntity
  8
0
 62
7
100
AcDbPolyline
 90
4
 70
0
 10
61.755136
 20
6.432457
 30
0.0
 10
62.792026
 20
6.216399
 30
0.0
 10
64.361859
 20
5.956342
 30
0.0
 10
65.407746
 20
5.784277
 30
0.0
  0
LWPOLYLINE
  5
10d
100
AcDbEntity
  8
0
 62
7
100
AcDbPolyline
 90
5
 70
0
 10
56.401710
 20
8.046553
 30
0.0
 10
57.339611
 20
7.657451
 30
0.0
 10
58.790453
 20
7.179381
 30
0.0
 10
60.269295
 20
6.788322
 30
0.0
 10
61.755136
 20
6.432457
 30
0.0
  0
LWPOLYLINE
  5
10e
100
AcDbEntity
  8
0
 62
7
100
AcDbPolyline
 90
4
 70
0
 10
53.999968
 20
9.574617
 30
0.0
 10
54.986863
 20
8.856046
 30
0.0
 10
55.677788
 20
8.421971
 30
0.0
 10
56.401710
 20
8.046553
 30
0.0
  0
LWPOLYLINE
  5
10f
100
AcDbEntity
  8
0
 62
7
100
AcDbPolyline
 90
4
 70
0
 10
51.898192
 20
11.519160
 30
0.0
 10
52.440134
 20
10.908129
 30
0.0
 10
53.041070
 20
10.347937
 30
0.0
 10
53.999968
 20
9.574617
 30
0.0
  0
LWPOLYLINE
  5
110
100
AcDbEntity
  8
0
 62
7
100
AcDbPolyline
 90
4
 70
0
 10
50.897299
 20
13.314118
 30
0.0
 10
51.279258
 20
12.519293
 30
0.0
 10
51.564227
 20
12.004071
 30
0.0
 10
51.898192
 20
11.519160
 30
0.0
  0
LWPOLYLINE
  5
111
100
AcDbEntity
  8
0
 62
7
100
AcDbPolyline
 90
3
 70
0
 10
50.297365
 20
14.860758
 30
0.0
 10
50.512339
 20
14.183247
 30
0.0
 10
50.897299
 20
13.314118
 30
0.0
  0
LWPOLYLINE
  5
112
100
AcDbEntity
  8
0
 62
7
100
AcDbPolyline
 90
3
 70
0
 10
50.049390
 20
16.326251
 30
0.0
 10
50.092387
 20
15.937148
 30
0.0
 10
50.297365
 20
14.860758
 30
0.0
  0
LWPOLYLINE
  5
113
100
AcDbEntity
  8
0
 62
7
100
AcDbPolyline
 90
2
 70
0
 10
514.999591
 20
73.965425
 30
0.0
 10
515.121596
 20
73.954670
 30
0.0
  0
LWPOLYLINE
  5
114
100
AcDbEntity
  8
0
 62
7
100
AcDbPolyline
 90
2
 70
0
 10
515.467544
 20
73.919476
 30
0.0
 10
515.121596
 20
73.954671
 30
0.0
  0
LWPOLYLINE
  5
115
100
AcDbEntity
  8
0
 62
7
100
AcDbPolyline
 90
30
 70
0
 10
515.467544
 20
73.919476
 30
0.0
 10
521.355913
 20
72.455938
 30
0.0
 10
527.249277
 20
71.105806
 30
0.0
 10
533.131663
 20
69.853439
 30
0.0
 10
538.996043
 20
68.686128
 30
0.0
 10
544.844393
 20
67.592140
 30
0.0
 10
550.685772
 20
66.562677
 30
0.0
 10
556.531159
 20
65.586985
 30
0.0
 10
562.393536
 20
64.659197
 30
0.0
 10
568.285884
 20
63.773448
 30
0.0
 10
574.216248
 20
62.923873
 30
0.0
 10
580.188634
 20
62.108515
 30
0.0
 10
592.225328
 20
60.574585
 30
0.0
 10
604.293037
 20
59.167750
 30
0.0
 10
616.355751
 20
57.875300
 30
0.0
 10
628.405454
 20
56.687458
 30
0.0
 10
640.442176
 20
55.593471
 30
0.0
 10
652.471870
 20
54.584538
 30
0.0
 10
664.501592
 20
53.653818
 30
0.0
 10
676.544296
 20
52.795443
 30
0.0
 10
694.648372
 20
51.633018
 30
0.0
 10
712.814424
 20
50.610400
 30
0.0
 10
731.024474
 20
49.721719
 30
0.0
 10
749.240508
 20
48.964043
 30
0.0
 10
767.450558
 20
48.332480
 30
0.0
 10
785.656629
 20
47.825081
 30
0.0
 10
803.865663
 20
47.442823
 30
0.0
 10
822.084716
 20
47.187657
 30
0.0
 10
840.316780
 20
47.064473
 30
0.0
 10
846.395112
 20
47.053720
 30
0.0
  0
LWPOLYLINE
  5
116
100
AcDbEntity
  8
0
 62
7
100
AcDbPolyline
 90
17
 70
0
 10
866.377970
 20
60.060343
 30
0.0
 10
864.926134
 20
58.175438
 30
0.0
 10
863.390309
 20
56.351147
 30
0.0
 10
861.761463
 20
54.603113
 30
0.0
 10
860.618604
 20
53.490550
 30
0.0
 10
859.426724
 20
52.428825
 30
0.0
 10
858.184861
 20
51.427713
 30
0.0
 10
856.888981
 20
50.496992
 30
0.0
 10
855.537137
 20
49.647419
 30
0.0
 10
854.128284
 20
48.893651
 30
0.0
 10
852.662450
 20
48.249380
 30
0.0
 10
851.147594
 20
47.731228
 30
0.0
 10
849.589783
 20
47.351902
 30
0.0
 10
848.798856
 20
47.218941
 30
0.0
 10
848.000957
 20
47.124109
 30
0.0
 10
847.198035
 20
47.069361
 30
0.0
 10
846.395112
 20
47.053726
 30
0.0
  0
LWPOLYLINE
  5
117
100
AcDbEntity
  8
0
 62
7
100
AcDbPolyline
 90
3
 70
0
 10
866.377970
 20
60.060343
 30
0.0
 10
944.950556
 20
60.027103
 30
0.0
 10
944.950556
 20
4.032332
 30
0.0
  0
LWPOLYLINE
  5
118
100
AcDbEntity
  8
0
 62
7
100
AcDbPolyline
 90
2
 70
0
 10
514.776635
 20
73.986934
 30
0.0
 10
514.429671
 20
74.018218
 30
0.0
  0
LWPOLYLINE
  5
119
100
AcDbEntity
  8
0
 62
7
100
AcDbPolyline
 90
2
 70
0
 10
514.999591
 20
73.965425
 30
0.0
 10
514.776635
 20
73.986934
 30
0.0
  0
LWPOLYLINE
  5
11a
100
AcDbEntity
  8
0
 62
7
100
AcDbPolyline
 90
271
 70
0
 10
514.429671
 20
74.018218
 30
0.0
 10
514.083695
 20
74.047548
 30
0.0
 10
513.737747
 20
74.075900
 30
0.0
 10
513.391771
 20
74.102296
 30
0.0
 10
513.044807
 20
74.127716
 30
0.0
 10
512.699847
 20
74.151179
 30
0.0
 10
512.352883
 20
74.173663
 30
0.0
 10
512.006935
 20
74.194196
 30
0.0
 10
511.127022
 20
74.243077
 30
0.0
 10
510.248098
 20
74.284139
 30
0.0
 10
509.368213
 20
74.320311
 30
0.0
 10
508.488301
 20
74.350619
 30
0.0
 10
507.608388
 20
74.377015
 30
0.0
 10
506.729492
 20
74.399500
 30
0.0
 10
505.849580
 20
74.418077
 30
0.0
 10
504.969667
 20
74.434696
 30
0.0
 10
504.089783
 20
74.448384
 30
0.0
 10
493.248922
 20
74.491400
 30
0.0
 10
492.238030
 20
74.483579
 30
0.0
 10
491.229142
 20
74.473802
 30
0.0
 10
490.218250
 20
74.463050
 30
0.0
 10
489.208374
 20
74.449360
 30
0.0
 10
488.197483
 20
74.435673
 30
0.0
 10
487.187579
 20
74.420030
 30
0.0
 10
486.176687
 20
74.402435
 30
0.0
 10
485.166783
 20
74.383858
 30
0.0
 10
484.155891
 20
74.364306
 30
0.0
 10
482.129112
 20
74.320311
 30
0.0
 10
481.113225
 20
74.295871
 30
0.0
 10
480.096350
 20
74.270451
 30
0.0
 10
479.080435
 20
74.244055
 30
0.0
 10
478.064548
 20
74.216682
 30
0.0
 10
477.047673
 20
74.187351
 30
0.0
 10
476.031786
 20
74.158022
 30
0.0
 10
475.014883
 20
74.126737
 30
0.0
 10
473.997980
 20
74.094475
 30
0.0
 10
472.981105
 20
74.061235
 30
0.0
 10
471.962198
 20
74.027995
 30
0.0
 10
470.941315
 20
73.992800
 30
0.0
 10
469.920433
 20
73.956627
 30
0.0
 10
468.899550
 20
73.920454
 30
0.0
 10
467.879656
 20
73.882325
 30
0.0
 10
466.858745
 20
73.843220
 30
0.0
 10
465.837863
 20
73.804114
 30
0.0
 10
464.816980
 20
73.764030
 30
0.0
 10
463.798073
 20
73.722969
 30
0.0
 10
461.754305
 20
73.638891
 30
0.0
 10
460.730402
 20
73.594897
 30
0.0
 10
459.707516
 20
73.550903
 30
0.0
 10
458.684630
 20
73.505931
 30
0.0
 10
457.661744
 20
73.459981
 30
0.0
 10
456.638858
 20
73.414032
 30
0.0
 10
455.614955
 20
73.367105
 30
0.0
 10
454.592069
 20
73.319200
 30
0.0
 10
453.569183
 20
73.271296
 30
0.0
 10
452.546297
 20
73.222413
 30
0.0
 10
451.519403
 20
73.172553
 30
0.0
 10
450.492509
 20
73.122693
 30
0.0
 10
449.466631
 20
73.071855
 30
0.0
 10
448.440725
 20
73.020040
 30
0.0
 10
447.413832
 20
72.968225
 30
0.0
 10
446.386938
 20
72.916409
 30
0.0
 10
445.361060
 20
72.863617
 30
0.0
 10
444.334166
 20
72.810824
 30
0.0
 10
443.308288
 20
72.757053
 30
0.0
 10
442.281395
 20
72.703282
 30
0.0
 10
441.252497
 20
72.648534
 30
0.0
 10
440.223600
 20
72.593786
 30
0.0
 10
439.193714
 20
72.539038
 30
0.0
 10
438.164817
 20
72.484289
 30
0.0
 10
437.135947
 20
72.428563
 30
0.0
 10
436.106062
 20
72.372838
 30
0.0
 10
435.077164
 20
72.317111
 30
0.0
 10
434.048267
 20
72.260408
 30
0.0
 10
433.018382
 20
72.204682
 30
0.0
 10
430.957595
 20
72.090297
 30
0.0
 10
429.927710
 20
72.032616
 30
0.0
 10
428.895820
 20
71.975913
 30
0.0
 10
427.864919
 20
71.918231
 30
0.0
 10
426.833030
 20
71.860550
 30
0.0
 10
425.802157
 20
71.802869
 30
0.0
 10
424.770268
 20
71.745188
 30
0.0
 10
423.739366
 20
71.688484
 30
0.0
 10
422.708493
 20
71.630803
 30
0.0
 10
420.650698
 20
71.517396
 30
0.0
 10
419.623804
 20
71.461670
 30
0.0
 10
418.598914
 20
71.404966
 30
0.0
 10
417.573037
 20
71.350218
 30
0.0
 10
416.547131
 20
71.294492
 30
0.0
 10
415.520265
 20
71.239744
 30
0.0
 10
414.495375
 20
71.185973
 30
0.0
 10
413.469469
 20
71.132202
 30
0.0
 10
412.443591
 20
71.079409
 30
0.0
 10
410.393811
 20
70.975779
 30
0.0
 10
409.369909
 20
70.924941
 30
0.0
 10
408.347023
 20
70.875081
 30
0.0
 10
407.323121
 20
70.826199
 30
0.0
 10
406.299247
 20
70.777316
 30
0.0
 10
405.276360
 20
70.729411
 30
0.0
 10
404.252458
 20
70.682484
 30
0.0
 10
403.229572
 20
70.635557
 30
0.0
 10
402.205670
 20
70.589608
 30
0.0
 10
401.182784
 20
70.543658
 30
0.0
 10
400.155890
 20
70.498687
 30
0.0
 10
399.130012
 20
70.454693
 30
0.0
 10
398.103118
 20
70.410699
 30
0.0
 10
397.077240
 20
70.366704
 30
0.0
 10
396.051334
 20
70.323688
 30
0.0
 10
395.024441
 20
70.281649
 30
0.0
 10
393.998563
 20
70.239610
 30
0.0
 10
392.971669
 20
70.198549
 30
0.0
 10
391.945791
 20
70.157488
 30
0.0
 10
389.892992
 20
70.077321
 30
0.0
 10
388.866098
 20
70.037237
 30
0.0
 10
387.839232
 20
69.998131
 30
0.0
 10
386.813326
 20
69.959025
 30
0.0
 10
385.786432
 20
69.920897
 30
0.0
 10
384.759539
 20
69.883746
 30
0.0
 10
383.733661
 20
69.845618
 30
0.0
 10
382.706767
 20
69.809445
 30
0.0
 10
381.680889
 20
69.773272
 30
0.0
 10
380.653996
 20
69.737099
 30
0.0
 10
379.629106
 20
69.701904
 30
0.0
 10
378.604216
 20
69.667686
 30
0.0
 10
377.579326
 20
69.633469
 30
0.0
 10
376.554436
 20
69.600229
 30
0.0
 10
375.529546
 20
69.566989
 30
0.0
 10
374.504656
 20
69.534726
 30
0.0
 10
373.478750
 20
69.503442
 30
0.0
 10
372.454876
 20
69.472157
 30
0.0
 10
371.429986
 20
69.441850
 30
0.0
 10
369.384185
 20
69.383191
 30
0.0
 10
368.362315
 20
69.354839
 30
0.0
 10
367.342420
 20
69.326487
 30
0.0
 10
366.320522
 20
69.300091
 30
0.0
 10
365.299639
 20
69.273695
 30
0.0
 10
364.278728
 20
69.248275
 30
0.0
 10
363.257846
 20
69.224811
 30
0.0
 10
362.236964
 20
69.201348
 30
0.0
 10
361.215065
 20
69.178864
 30
0.0
 10
360.194183
 20
69.157354
 30
0.0
 10
359.178296
 20
69.136822
 30
0.0
 10
358.161392
 20
69.118248
 30
0.0
 10
357.144518
 20
69.100652
 30
0.0
 10
356.127614
 20
69.084031
 30
0.0
 10
355.111727
 20
69.068390
 30
0.0
 10
354.094824
 20
69.053724
 30
0.0
 10
353.077949
 20
69.040036
 30
0.0
 10
352.062062
 20
69.027328
 30
0.0
 10
351.045159
 20
69.016572
 30
0.0
 10
349.014373
 20
68.997997
 30
0.0
 10
347.999473
 20
68.990177
 30
0.0
 10
346.984602
 20
68.984312
 30
0.0
 10
345.969703
 20
68.979422
 30
0.0
 10
344.955820
 20
68.975511
 30
0.0
 10
343.940920
 20
68.972580
 30
0.0
 10
342.926021
 20
68.971591
 30
0.0
 10
341.911150
 20
68.971601
 30
0.0
 10
340.897238
 20
68.972589
 30
0.0
 10
338.872463
 20
68.979423
 30
0.0
 10
337.861571
 20
68.985287
 30
0.0
 10
336.851667
 20
68.992132
 30
0.0
 10
335.841792
 20
69.000931
 30
0.0
 10
334.831888
 20
69.010707
 30
0.0
 10
333.822012
 20
69.021462
 30
0.0
 10
332.811120
 20
69.035149
 30
0.0
 10
331.801216
 20
69.049813
 30
0.0
 10
330.791340
 20
69.065454
 30
0.0
 10
329.781436
 20
69.083052
 30
0.0
 10
328.775540
 20
69.102605
 30
0.0
 10
327.769643
 20
69.124114
 30
0.0
 10
326.764763
 20
69.146599
 30
0.0
 10
325.758866
 20
69.171041
 30
0.0
 10
324.752970
 20
69.197438
 30
0.0
 10
323.747074
 20
69.225790
 30
0.0
 10
322.742193
 20
69.255119
 30
0.0
 10
321.736297
 20
69.287381
 30
0.0
 10
320.731416
 20
69.320621
 30
0.0
 10
319.725520
 20
69.355817
 30
0.0
 10
318.728626
 20
69.392967
 30
0.0
 10
317.730717
 20
69.433051
 30
0.0
 10
316.733823
 20
69.474112
 30
0.0
 10
315.736930
 20
69.517128
 30
0.0
 10
314.739048
 20
69.563078
 30
0.0
 10
313.742155
 20
69.610005
 30
0.0
 10
312.745261
 20
69.659865
 30
0.0
 10
311.748368
 20
69.712658
 30
0.0
 10
310.751474
 20
69.767406
 30
0.0
 10
309.754580
 20
69.824110
 30
0.0
 10
308.768694
 20
69.882769
 30
0.0
 10
307.782778
 20
69.944360
 30
0.0
 10
306.796892
 20
70.008885
 30
0.0
 10
305.811005
 20
70.075365
 30
0.0
 10
304.826106
 20
70.144778
 30
0.0
 10
303.840219
 20
70.217124
 30
0.0
 10
302.854332
 20
70.292403
 30
0.0
 10
301.869433
 20
70.370615
 30
0.0
 10
300.883518
 20
70.452737
 30
0.0
 10
298.935733
 20
70.623826
 30
0.0
 10
297.972847
 20
70.712792
 30
0.0
 10
297.009933
 20
70.805668
 30
0.0
 10
296.048035
 20
70.902455
 30
0.0
 10
295.085149
 20
71.002175
 30
0.0
 10
294.122263
 20
71.106784
 30
0.0
 10
293.160365
 20
71.214325
 30
0.0
 10
292.197451
 20
71.325777
 30
0.0
 10
291.235553
 20
71.442117
 30
0.0
 10
290.273655
 20
71.562368
 30
0.0
 10
289.355756
 20
71.684573
 30
0.0
 10
288.437856
 20
71.810690
 30
0.0
 10
287.518969
 20
71.941695
 30
0.0
 10
286.602057
 20
72.077588
 30
0.0
 10
285.684158
 20
72.217391
 30
0.0
 10
284.766258
 20
72.363061
 30
0.0
 10
283.848358
 20
72.514596
 30
0.0
 10
282.931447
 20
72.671020
 30
0.0
 10
282.014552
 20
72.834287
 30
0.0
 10
281.097649
 20
73.004398
 30
0.0
 10
280.303735
 20
73.170598
 30
0.0
 10
279.510820
 20
73.340708
 30
0.0
 10
278.718905
 20
73.515707
 30
0.0
 10
277.925987
 20
73.695595
 30
0.0
 10
277.133073
 20
73.879392
 30
0.0
 10
276.341157
 20
74.069056
 30
0.0
 10
275.548242
 20
74.265563
 30
0.0
 10
274.756327
 20
74.469892
 30
0.0
 10
273.964414
 20
74.683019
 30
0.0
 10
273.173498
 20
74.907878
 30
0.0
 10
272.594558
 20
75.087765
 30
0.0
 10
272.042619
 20
75.266674
 30
0.0
 10
271.514674
 20
75.445584
 30
0.0
 10
271.009728
 20
75.623516
 30
0.0
 10
270.528782
 20
75.800470
 30
0.0
 10
270.068830
 20
75.977424
 30
0.0
 10
269.630878
 20
76.154378
 30
0.0
 10
269.213923
 20
76.329377
 30
0.0
 10
268.816963
 20
76.505354
 30
0.0
 10
268.440004
 20
76.680353
 30
0.0
 10
268.189033
 20
76.803536
 30
0.0
 10
267.946056
 20
76.927698
 30
0.0
 10
267.713082
 20
77.050881
 30
0.0
 10
267.488106
 20
77.174065
 30
0.0
 10
267.271130
 20
77.297249
 30
0.0
 10
267.063152
 20
77.419455
 30
0.0
 10
266.862173
 20
77.542638
 30
0.0
 10
266.670195
 20
77.664844
 30
0.0
 10
266.485215
 20
77.787050
 30
0.0
 10
266.309232
 20
77.909256
 30
0.0
 10
266.180245
 20
78.000177
 30
0.0
 10
266.056260
 20
78.091098
 30
0.0
 10
265.937272
 20
78.181042
 30
0.0
 10
265.823285
 20
78.271963
 30
0.0
 10
265.715296
 20
78.362885
 30
0.0
 10
265.611308
 20
78.452828
 30
0.0
 10
265.513318
 20
78.542772
 30
0.0
 10
265.421327
 20
78.633693
 30
0.0
 10
265.335337
 20
78.723637
 30
0.0
 10
265.254345
 20
78.812602
 30
0.0
 10
265.184354
 20
78.898635
 30
0.0
 10
265.119361
 20
78.983691
 30
0.0
 10
265.060365
 20
79.069724
 30
0.0
 10
265.006373
 20
79.154779
 30
0.0
 10
264.958378
 20
79.239834
 30
0.0
 10
264.916381
 20
79.324890
 30
0.0
 10
264.879384
 20
79.409945
 30
0.0
 10
264.848388
 20
79.494023
 30
0.0
 10
264.822395
 20
79.579078
 30
0.0
 10
264.802394
 20
79.663156
 30
0.0
 10
264.788396
 20
79.748211
 30
0.0
 10
264.779393
 20
79.832289
 30
0.0
 10
264.776404
 20
79.917344
 30
0.0
  0
LWPOLYLINE
  5
11b
100
AcDbEntity
  8
0
 62
7
100
AcDbPolyline
 90
2
 70
0
 10
245.028511
 20
79.585922
 30
0.0
 10
210.859170
 20
79.013998
 30
0.0
  0
SPLINE
  5
11c
100
AcDbEntity
  8
0
 62
7
100
AcDbSpline
 70
8
 71
3
 72
8
 73
4
 74
0
 40
0
 40
0
 40
0
 40
0
 40
1
 40
1
 40
1
 40
1
 10
210.859170
 20
79.013020
 30
0.0
 10
208.770886
 20
78.862451
 30
0.0
 10
206.683099
 20
78.705375
 30
0.0
 10
204.595840
 20
78.541794
 30
0.0
  0
LWPOLYLINE
  5
11d
100
AcDbEntity
  8
0
 62
7
100
AcDbPolyline
 90
2
 70
0
 10
264.776396
 20
79.917344
 30
0.0
 10
245.028511
 20
79.585922
 30
0.0
  0
LWPOLYLINE
  5
11e
100
AcDbEntity
  8
0
 62
7
100
AcDbPolyline
 90
3
 70
0
 10
195.298836
 20
77.743056
 30
0.0
 10
199.280410
 20
78.112607
 30
0.0
 10
204.595840
 20
78.540816
 30
0.0
  0
LWPOLYLINE
  5
11f
100
AcDbEntity
  8
0
 62
7
100
AcDbPolyline
 90
3
 70
0
 10
186.642764
 20
76.695995
 30
0.0
 10
191.586234
 20
77.313869
 30
0.0
 10
195.298836
 20
77.743056
 30
0.0
  0
SPLINE
  5
120
100
AcDbEntity
  8
0
 62
7
100
AcDbSpline
 70
8
 71
3
 72
8
 73
4
 74
0
 40
0
 40
0
 40
0
 40
0
 40
1
 40
1
 40
1
 40
1
 10
176.835813
 20
75.549215
 30
0.0
 10
173.476917
 20
75.112105
 30
0.0
 10
170.124295
 20
74.630080
 30
0.0
 10
166.778889
 20
74.103274
 30
0.0
  0
SPLINE
  5
121
100
AcDbEntity
  8
0
 62
7
100
AcDbSpline
 70
8
 71
3
 72
8
 73
4
 74
0
 40
0
 40
0
 40
0
 40
0
 40
1
 40
1
 40
1
 40
1
 10
166.778889
 20
74.103274
 30
0.0
 10
163.769424
 20
73.628184
 30
0.0
 10
160.766795
 20
73.112589
 30
0.0
 10
157.771854
 20
72.556635
 30
0.0
  0
LWPOLYLINE
  5
122
100
AcDbEntity
  8
0
 62
7
100
AcDbPolyline
 90
3
 70
0
 10
176.835813
 20
75.549215
 30
0.0
 10
181.036364
 20
76.056614
 30
0.0
 10
186.642764
 20
76.695995
 30
0.0
  0
LWPOLYLINE
  5
123
100
AcDbEntity
  8
0
 62
7
100
AcDbPolyline
 90
4
 70
0
 10
146.264088
 20
70.263074
 30
0.0
 10
149.537736
 20
70.985555
 30
0.0
 10
152.827383
 20
71.637646
 30
0.0
 10
157.771854
 20
72.556635
 30
0.0
  0
SPLINE
  5
124
100
AcDbEntity
  8
0
 62
7
100
AcDbSpline
 70
8
 71
3
 72
8
 73
4
 74
0
 40
0
 40
0
 40
0
 40
0
 40
1
 40
1
 40
1
 40
1
 10
139.308832
 20
68.368393
 30
0.0
 10
135.902465
 20
67.368505
 30
0.0
 10
132.516194
 20
66.304300
 30
0.0
 10
129.151919
 20
65.176373
 30
0.0
  0
LWPOLYLINE
  5
125
100
AcDbEntity
  8
0
 62
7
100
AcDbPolyline
 90
3
 70
0
 10
139.308832
 20
68.368393
 30
0.0
 10
143.270407
 20
69.498553
 30
0.0
 10
146.264088
 20
70.263074
 30
0.0
  0
LWPOLYLINE
  5
126
100
AcDbEntity
  8
0
 62
7
100
AcDbPolyline
 90
3
 70
0
 10
121.446744
 20
62.434071
 30
0.0
 10
125.843273
 20
64.017860
 30
0.0
 10
129.151919
 20
65.176373
 30
0.0
  0
LWPOLYLINE
  5
127
100
AcDbEntity
  8
0
 62
7
100
AcDbPolyline
 90
3
 70
0
 10
116.843237
 20
60.838550
 30
0.0
 10
118.811026
 20
61.537568
 30
0.0
 10
121.446744
 20
62.434071
 30
0.0
  0
LWPOLYLINE
  5
128
100
AcDbEntity
  8
0
 62
7
100
AcDbPolyline
 90
4
 70
0
 10
110.238946
 20
58.145131
 30
0.0
 10
113.063644
 20
59.313420
 30
0.0
 10
115.892340
 20
60.470955
 30
0.0
 10
116.843237
 20
60.838550
 30
0.0
  0
LWPOLYLINE
  5
129
100
AcDbEntity
  8
0
 62
7
100
AcDbPolyline
 90
3
 70
0
 10
104.885518
 20
56.023636
 30
0.0
 10
107.174273
 20
56.945557
 30
0.0
 10
110.238946
 20
58.145131
 30
0.0
  0
LWPOLYLINE
  5
12a
100
AcDbEntity
  8
0
 62
7
100
AcDbPolyline
 90
4
 70
0
 10
90.825024
 20
49.767668
 30
0.0
 10
96.831381
 20
52.490417
 30
0.0
 10
100.846952
 20
54.283423
 30
0.0
 10
104.885518
 20
56.023636
 30
0.0
  0
LWPOLYLINE
  5
12b
100
AcDbEntity
  8
0
 62
7
100
AcDbPolyline
 90
4
 70
0
 10
81.369035
 20
45.428868
 30
0.0
 10
84.046749
 20
46.718384
 30
0.0
 10
88.111316
 20
48.554409
 30
0.0
 10
90.825024
 20
49.767668
 30
0.0
  0
LWPOLYLINE
  5
12c
100
AcDbEntity
  8
0
 62
7
100
AcDbPolyline
 90
4
 70
0
 10
74.218803
 20
41.539787
 30
0.0
 10
77.257475
 20
43.251648
 30
0.0
 10
80.332148
 20
44.901917
 30
0.0
 10
81.369035
 20
45.428868
 30
0.0
  0
SPLINE
  5
12d
100
AcDbEntity
  8
0
 62
7
100
AcDbSpline
 70
8
 71
3
 72
8
 73
4
 74
0
 40
0
 40
0
 40
0
 40
0
 40
1
 40
1
 40
1
 40
1
 10
68.710392
 20
38.177656
 30
0.0
 10
67.340398
 20
37.268742
 30
0.0
 10
66.004976
 20
36.310980
 30
0.0
 10
64.706822
 20
35.306305
 30
0.0
  0
SPLINE
  5
12e
100
AcDbEntity
  8
0
 62
7
100
AcDbSpline
 70
8
 71
3
 72
8
 73
4
 74
0
 40
0
 40
0
 40
0
 40
0
 40
1
 40
1
 40
1
 40
1
 10
58.702465
 20
30.420022
 30
0.0
 10
57.638873
 20
29.486653
 30
0.0
 10
56.604830
 20
28.521585
 30
0.0
 10
55.601797
 20
27.526183
 30
0.0
  0
LWPOLYLINE
  5
12f
100
AcDbEntity
  8
0
 62
7
100
AcDbPolyline
 90
3
 70
0
 10
68.710392
 20
38.177656
 30
0.0
 10
71.041141
 20
39.663680
 30
0.0
 10
74.218803
 20
41.539787
 30
0.0
  0
LWPOLYLINE
  5
130
100
AcDbEntity
  8
0
 62
7
100
AcDbPolyline
 90
3
 70
0
 10
53.349037
 20
25.182762
 30
0.0
 10
54.616900
 20
26.539738
 30
0.0
 10
55.600795
 20
27.527163
 30
0.0
  0
LWPOLYLINE
  5
131
100
AcDbEntity
  8
0
 62
7
100
AcDbPolyline
 90
4
 70
0
 10
51.798203
 20
23.288080
 30
0.0
 10
52.200161
 20
23.859027
 30
0.0
 10
52.881087
 20
24.661676
 30
0.0
 10
53.349037
 20
25.182762
 30
0.0
  0
LWPOLYLINE
  5
132
100
AcDbEntity
  8
0
 62
7
100
AcDbPolyline
 90
4
 70
0
 10
50.797310
 20
21.293681
 30
0.0
 10
51.023286
 20
21.888089
 30
0.0
 10
51.467238
 20
22.742553
 30
0.0
 10
51.798203
 20
23.288080
 30
0.0
  0
LWPOLYLINE
  5
133
100
AcDbEntity
  8
0
 62
7
100
AcDbPolyline
 90
3
 70
0
 10
50.149379
 20
18.575819
 30
0.0
 10
50.376356
 20
19.752908
 30
0.0
 10
50.797310
 20
21.293681
 30
0.0
  0
LWPOLYLINE
  5
134
100
AcDbEntity
  8
0
 62
7
100
AcDbPolyline
 90
4
 70
0
 10
50.049390
 20
16.406419
 30
0.0
 10
50.076399
 20
17.336163
 30
0.0
 10
50.113396
 20
18.269816
 30
0.0
 10
50.149390
 20
18.575819
 30
0.0
  0
SPLINE
  5
135
100
AcDbEntity
  8
0
 62
7
100
AcDbSpline
 70
8
 71
3
 72
8
 73
4
 74
0
 40
0
 40
0
 40
0
 40
0
 40
1
 40
1
 40
1
 40
1
 10
58.703464
 20
30.419043
 30
0.0
 10
58.703464
 20
30.419043
 30
0.0
 10
59.143767
 20
30.809144
 30
0.0
 10
59.367541
 20
31.000000
 30
0.0
  0
SPLINE
  5
136
100
AcDbEntity
  8
0
 62
7
100
AcDbSpline
 70
8
 71
3
 72
8
 73
4
 74
0
 40
0
 40
0
 40
0
 40
0
 40
1
 40
1
 40
1
 40
1
 10
59.367541
 20
31.000000
 30
0.0
 10
59.984866
 20
31.526522
 30
0.0
 10
61.239191
 20
32.556182
 30
0.0
 10
61.239191
 20
32.556182
 30
0.0
  0
LWPOLYLINE
  5
137
100
AcDbEntity
  8
0
 62
7
100
AcDbPolyline
 90
2
 70
0
 10
50.049390
 20
16.406419
 30
0.0
 10
50.049390
 20
16.326251
 30
0.0
  0
LWPOLYLINE
  5
138
100
AcDbEntity
  8
0
 62
7
100
AcDbPolyline
 90
2
 70
0
 10
61.239191
 20
32.556182
 30
0.0
 10
64.706822
 20
35.306305
 30
0.0
  0
LWPOLYLINE
  5
139
100
AcDbEntity
  8
0
 62
7
100
AcDbPolyline
 90
2
 70
0
 10
0.000000
 20
29.999999
 30
0.0
 10
58.301094
 20
29.999999
 30
0.0
  0
ENDSEC
  0
SECTION
  2
OBJECTS
  0
DICTIONARY
  5
C
330
0
100
AcDbDictionary
  3
ACAD_GROUP
350
D
  3
ACAD_MLINESTYLE
350
17
  0
DICTIONARY
  5
D
330
C
100
AcDbDictionary
  0
DICTIONARY
  5
1A
330
C
100
AcDbDictionary
  0
DICTIONARY
  5
17
330
C
100
AcDbDictionary
  3
STANDARD
350
18
  0
DICTIONARY
  5
19
330
C
100
AcDbDictionary
  0
ENDSEC
  0
EOF
